Acordes
Chacarera del ácido lisérgico

A continuación os ofrecemos los acordes para guitarra de la obra Chacarera del ácido lisérgico realizados por Johnny Littlebang (Julián Luini).

Esta chacarera, si bien fue compuesta en La Mayor euforia de Mastropiero, desgraciadamente no está en La Mayor sino en el complicado Mi bemol menor. Pero también puede ejecutarse en La menor, un poco para aproximarse a lo que dice la introducción, y otro poco para que su ejecución resulte más fácil. Aquí detallamos ambas formas de tocarla.

NOTA: Además de poder tocarse en Mi bemol menor y en La menor, puede tocarse como si fuera en La menor pero con el transportador en el sexto casillero. De esta manera sonará en Mi bemol menor, el tono orignial.



Versión en Mi bemol menor (tono original)


INTRO:



   Ebm                     Bb7       Ebm
1|--2--1--2--4--6-6---7--6--4-4--2--4--6--
2|--4--3--4--6--7-7---9--7--6-6--4--6--7--
3|----------------------------------------
4|----------------------------------------
5|----------------------------------------
6|----------------------------------------


                            Bb7       Ebm Bb7 Ebm Bb7 Ebm
1|--2--1--2--4--6-6---7--6--4-4--2--1---------------------
2|--4--3--4--6--7-7---9--7--6-6--4--3--4------------------
3|--------------------------------------------------------
4|--------------------------------------------------------
5|--------------------------------------------------------
6|--------------------------------------------------------



 Ebm    Ab     Gb      Bb7
Ácido, ácido, ácido, ácido,
 Ebm    Ab     Gb      Bb7
ácido, ácido, ácido, ácido.
  Ebm           Ab      Gb           Bb7
Conozca el interior, conozca el interior.
  Ebm           Ab      Gb           Bb7
Conozca el interior, conozca el interior.


      Ebm                         Bb7   Ebm
Explorar el inconsciente, sin ningún temor,
                               Bb7   Eb
con espíritu valiente, sin ningún temor,
 Gb                           Bb7    Eb
   si quieren probar presten atención,
 Gb                                Bb7    Eb
   ya les vamos a contar, presten atención.


  Ab     SIb     Eb    Ab   SIb   Eb
Apronten la libreta, anoten la receta,
     Ab      SIb       Eb       Ab   SIb  Eb
porque esto no es un cuento, es un medicamento
 Gb                                Bb7   Eb
    Ya le vamos a contar, presten atención.


(Punteo de INTRO)


 Ebm    Ab     Gb      Bb7
Ácido, ácido, ácido, ácido,
 Ebm    Ab     Gb      Bb7
ácido, ácido, ácido, ácido.
      Ebm        Ab        Gb         Bb7
¡Ay, vamos a viajar! ¡Ay, vamos a viajar! 
      Ebm        Ab        Gb         Bb7
¡Ay, vamos a viajar! ¡Ay, vamos a viajar! 


    Ebm                    Bb7  Ebm
A vivir ensoñaciones con el ácido.
                    Bb7  Eb
Alucinaciones, con el ácido 
 Gb                         Bb7  Eb
    Óigame, inhibido, con el ácido 
 Gb                          Bb7  Eb
    Suelte su libido, con el ácido.


   Ab   SIb     Eb      Ab    SIb       Eb
¡Aflójense las ropas, alcemos nuestras copas, 
    Ab    SIb      Eb        Ab     SIb      Eb
una nueva experiencia que nos brindó la ciencia! 
 Gb                         Bb7    Eb      Eb6+
    Suelta la libido, el lisérgico.
  



  
Versión en La menor (forma sencilla)


INTRO:


    Am                      E7        Am
1|----------------------------------------
2|--1--0--1--3--5-5---6--5--3-3--1--3--5--
3|--2--1--2--4--5-5---7--5--4-4--2--4--5--
4|----------------------------------------
5|----------------------------------------
6|----------------------------------------


                            E7        Am E7 Am E7 Am
1|--------------------------------------------------------
2|--1--0--1--3--5-5---6--5--3-3--1--0---------------------
3|--2--1--2--4--5-5---7--5--4-4--2--1--2------------------
4|--------------------------------------------------------
5|--------------------------------------------------------
6|--------------------------------------------------------



Am    D      C       E7
Ácido, ácido, ácido, ácido,
Am    D      C       E7
ácido, ácido, ácido, ácido.
  Am            D       C            E7 
Conozca el interior, conozca el interior.
  Am            D       C            E7 
Conozca el interior, conozca el interior.


      Am                          E7    Am 
Explorar el inconsciente, sin ningún temor,
                               E7    A 
con espíritu valiente, sin ningún temor,
 C                            E7     A 
   si quieren probar presten atención,
 C                                 E7     A 
   ya les vamos a contar, presten atención.


  D       E7     A     D    E7    A 
Apronten la libreta, anoten la receta,
     D        E7       A        D    E7  A 
porque esto no es un cuento, es un medicamento
 C                                 E7    A 
    Ya le vamos a contar, presten atención.


(Punteo de INTRO)


Am    D      C       E7
Ácido, ácido, ácido, ácido,
Am    D      C       E7
ácido, ácido, ácido, ácido.
      Am         D         C          E7 
¡Ay, vamos a viajar! ¡Ay, vamos a viajar! 
      Am         D         C          E7 
¡Ay, vamos a viajar! ¡Ay, vamos a viajar! 


    Am                     E7   Am 
A vivir ensoñaciones con el ácido.
                    E7   A 
Alucinaciones, con el ácido 
 C                          E7   A 
    Óigame, inhibido, con el ácido 
 C                           E7   A 
    Suelte su libido, con el ácido.


   D    E7      A       D     E7        A 
¡Aflójense las ropas, alcemos nuestras copas, 
    D     E7       A          D      E7      A 
una nueva experiencia que nos brindó la ciencia! 
 C                          E7     A       A6+
    Suelta la libido, el lisérgico.


Puedes ayudar a costear el hospedaje con una pequeña aportación en Bitcoins: [[address]]

Recibida la donación de [[value]] BTC. ¡Muchísimas gracias!
[[error]]
url: http://www.lesluthiers.org
e-mail: webmaster@lesluthiers.org